Misc Soundtrack - Spiderman - We Are Chords & Tabs

 

Spiderman - We Are Chords & Tabs

Misc Soundtrack Chords & Tabs

Version: 1 Type: Tab 0 ratings
1 star 2 stars 3 stars 4 stars 5 stars
comments

Spiderman - We Are Tab

   
Ana is a new band debuting on the Spider-Man 2 Soundtrack.

Artist:	Ana
Song:	We Are
Album:  Spider-Man 2 Soundtrack
Tabber:	zman919191

Tuning: Drop D and Down  Step
Db Ab Db Gb Bb eb

Intro:
  Am         Dsus2           Am         Dsus2
|----------------0--------------------------0---------|
|-----1--------------------------1--------------------|
|---2----------2---2---0-------2----------2---2---0---|
|-------2-3--0---------------------2-3--0-------------|
|-0------------------3---2---0------------------3---2-|
|-----------------------------------------------------|
[ Tab from: http://www.guitartabs.cc/tabs/m/misc_soundtrack/spiderman_we_are_tab.html ]
  Am         G               Am         Dsus2
|--------------------0----------------------0---------|
|-----1------------3-----3-------1--------------------|
|---2------------0-----0-------2----------2---2---0---|
|-------2-3----0-------------------2-3--0-------------|
|-0--------------------------0------------------3---2-|
|------------5----------------------------------------|

Prechorus:
  Am       F          G                        Am       F        Dsus2
|-----0--0---1---1--------3----3---3---3--3-3------0--0---1---1--0--|
|-----1--1-1-1-1-1--1-----3----3---3---3--3-3------1--1-1-1-1-1--3--|
|-2-2-2--2-2-2-2-2--2-0-0-0-0--0-0-0-0-0--0-0--2-2-2--2-2-2-2-2--2--|
|-2-2-2--2-3-3-3-3--3-0-0-0-0--0-0-0-0-0--0-0--2-2-2--2-3-3-3-3--0--|
|-0-0-0---------------X-X-X-X----X---X-X--X-X--0-0-0-------------0--|
|---------------------5-5-5-5----5---5-5--5-5-----------------------|

Chorus:  Figure out strumming pattern
|-----------------------------------|
|-----------------------------------|
|-------------------------7---5--4--|
|-7---3---5---5---7---3---7---x--x--|
|-7---3---5---5---7---3---5---3--2--|
|-7---3---5---5---7---3-------------|

Bridge:
|-------------------------------|
|-------------------------------|
|-------------------------------|
|-3-3-3--3--3--3--0-0--0--0--0--|x4
|-3-3-3--3--3--3--0-0--0--0--0--|
|-3-3-3--3--3--3--0-0--0--0--0--|
  . .             . .
Comments