Misc Soundtrack - Rocky Chords & Tabs

 

Rocky Chords & Tabs

Misc Soundtrack Chords & Tabs

Version: 1 Type: Tab 0 ratings
1 star 2 stars 3 stars 4 stars 5 stars
comments

Rocky Tab

This song is very easy look:

e---------
b---------
g---(5)---
d---(5)---
a---(3)---
e---------
[ Tab from: http://www.guitartabs.cc/tabs/m/misc_soundtrack/rocky_tab.html ]
e-------------------------
b-------------------------
g---5--3--5-----5--3--5---
d---5--3--5-----5--3--5---  
a---3--1--3-----3--1--3---
e-------------------------

and the last is

e------------
b------------
g---5--3-----
d---5--3--6--
a---3--1--6--
e---------4--


Ok?. is very easy good luck
Comments