Misc Soundtrack - Pulp Fiction Chords & Tabs

 

Pulp Fiction Chords & Tabs

Misc Soundtrack Chords & Tabs

Version: 2 Type: Tab 1 rating
1 star 2 stars 3 stars 4 stars 5 stars
comments

Pulp Fiction Tab

Pulp Fiction Thyme - Misirlou - By Dick Dale & His Del-Tones(not the best name for a band is it)
Not 100% right but close enough.Xcellent Song, Standard Tuning.Trendo picking.
[ Tab from: http://www.guitartabs.cc/tabs/m/misc_soundtrack/pulp_fiction_tab_ver_2.html ]
Part 1
1)----------------------------------------------------------------------------------------------------
2)----------------------------------------------------------------------------------------------------
3)-----------------------------------------------------------------------------------------------------
4)-----------------------------------------------------------------------------------------------------
5)-----------------------------------------------------------------------------------------------------
6)-0-0-0-0-0-0-0-0-0-1-1-1-1-1-1-1-1-4-4-4-4-4-4-4-4-5-5-5-5-5-5-5-5

6)-7-7-7-7-8-8-8-8-11-11-8-8-7-7-7-7-7-7-7-7-/-0-------------------------------------------

Part 2
6)-0-0-0-0-0-0-0-0-1-1-1-1-1-1-1-1-4-4-4-4-4-4-4-4-5-5-5-5-5-5-5-5

6)-7-7-7-7-8-8-8-8-11-11-8-8-7-7-7-7-7-7-7-7-8-8-8-8-5-5-5-5-7-7-7-7-4-4-4-4

6)-5-5-5-5-1-1-1-1-0

Do the same on the First string.

That's all I know, I'm not sure about how many times you play the string I'm only guessing.

Enjoy.
Comments