Misc Soundtrack - Power Rangers Theme Chords & Tabs

 

Power Rangers Theme Chords & Tabs

Misc Soundtrack Chords & Tabs

Version: 3 Type: Tab 0 ratings
1 star 2 stars 3 stars 4 stars 5 stars
comments

Power Rangers Theme Tab

   
power rangers theme by misc soundtrack


e------------------------------------------------|
B------------------------------------------------|
G-9------9-----9----9-----9----9---9----9----9---|
D-9------9-----9----9-----9----9---9----9----9---|
A-7------7-----7----7-----7----7---7----7----7---|
E----0-0---0-0---0----0-0---0-0--0---0-0--0-0--0-|
     ...   ...   .    ...   ...  .   ...  ...  .

e------------------------|
B------------------------|
G-9-10-11-12-13-14-15-16-|
D-9-10-11-12-13-14-15-16-|
A-7--8--9-10-11-12-13-14-|
E------------------------|

Repeat verse and verse continued

LEAD GUITAR

INTRO

Come in on 4th time

(Play really fast)

e---------------------------------------------------------------------------------|
B-8-8-8-8-8-8-8-8-8-8-8-8-8-8-8-8-10-10-10-10-10-10-10-10-10-10-10-10-10-10- -----|
G---------------------------------------------------------------------------------|
D---------------------------------------------------------------------------------|
A---------------------------------------------------------------------------------|
E---------------------------------------------------------------------------------|
[ Tab from: http://www.guitartabs.cc/tabs/m/misc_soundtrack/power_rangers_theme_tab_ver_3.html ]
e-----------------------------------------------------------------------------------------------------|
B-12-12-12-12-12-12-12-12-12-12-12-12-12-12-12-12-13-13-13-13-13-13-13-13-13-13-13-13-13-13-13-13-12--|
G-----------------------------------------------------------------------------------------------------|
D-----------------------------------------------------------------------------------------------------|
A-----------------------------------------------------------------------------------------------------|
E-----------------------------------------------------------------------------------------------------|


VERSE

( wait 1 beat after the rythem guitar starts )

\"Go Go Power Rangers...\"
e--12~--19~--17~--14-15~--12~--19~--17~--15-14~---|
B-------------------------------------------------|
G-------------------------------------------------|  2X
D-------------------------------------------------|
A-------------------------------------------------|
E-------------------------------------------------|


VERSE CONTINUED
e-------------------------------------|
B-------------------------------------|
G-9-9-9-9-9-9~--9-9-9-9-9-9-9-9-10--9-|
D-9-9-9-9-9-9~--9-9-9-9-9-9-9-9-10--9-|
A-7-7-7-7-7-7~--7-7-7-7-7-7-7-7--8--7-|
E-------------------------------------|

e--------------------------------------------------------------|
B--------------------------------------------------------------|
G--9---------9--------9----9----9----9--9-10-11-12-13-14-15-16-|
D--9---------9--------9----9----9----9--9-10-11-12-13-14-15-16-|
A--7---------7--------7----7----7----7--7--8--9-10-11-12-13-14-|
E---------0---------0----0---0----0---0------------------------|

Repeat verse and verse continued

End on

e---
B---
G-9-
D-9-
A-7-
E---
Comments