Misc Soundtrack - Pirates Of The Carribean Theme Chords & Tabs

 

Pirates Of The Carribean Theme Chords & Tabs

Misc Soundtrack Chords & Tabs

Version: 1 Type: Tab 2 ratings
1 star 2 stars 3 stars 4 stars 5 stars
comments

Pirates Of The Carribean Theme Tab


Pirates of the Carribean Theme

by ramohse








This is my interpretation of the main theme from "Pirates of the Carribean".
You can mess around with it a lot to make it sound really cool, i.e.  dropped D tuning, 
5ths, 3rds, etc., but you get the basic idea.  







[ Tab from: http://www.guitartabs.cc/tabs/m/misc_soundtrack/pirates_of_the_carribean_theme_tab.html ]
e:-------------------------------------------------------------------|
B:-------------------------------------------------------------------|
G:-------------------------------0-2-3-2-0---------------------------|
D:0-2-3-2-0------0-2-3-5-3-2---3-----------3-2---0-------------------|
A:----------3----------------------------------3---------------------|
E:-------------------------------------------------------------------|

e:-------------------------------------------------------------------|
B:----------------------------------------------3--------------------|
G:-2--2-2-3-----0-0-0-0-2-----2--2-2-3---5-5-5-----------------------|
D:-------------------------------------------------------------------|
A:-------------------------------------------------------------------|
E:-------------------------------------------------------------------|








...drink up, me hearties, yo ho...
Comments