Misc Soundtrack - Pirates Of The Caribbean Theme Chords & Tabs

 

Pirates Of The Caribbean Theme Chords & Tabs

Misc Soundtrack Chords & Tabs

Version: 3 Type: Tab 0 ratings
1 star 2 stars 3 stars 4 stars 5 stars
comments

Pirates Of The Caribbean Theme Tab

This is off a movie
E|------0-1-1-1-3-0-0-------5-----0-1---0---------0-1---0-1-3-3-3-||
B|3-3-3---------------3-1-3---3-3-----3---3-1-3-3-----3-----------||
G|----------------------------------------------------------------||
D|----------------------------------------------------------------||
A|----------------------------------------------------------------||
E|----------------------------------------------------------------||
[ Tab from: http://www.guitartabs.cc/tabs/m/misc_soundtrack/pirates_of_the_caribbean_theme_tab_ver_3.html ]
E|5-6-5-3-5-1-0---------------------------------------------------||
B|--------------3-1-----------------------------------------------||
G|----------------------------------------------------------------||
D|----------------------------------------------------------------||
A|----------------------------------------------------------------||
E|----------------------------------------------------------------||
Repeat

this is when at the very beginning of the movie and end
Comments