Misc Soundtrack - Peter Gunn Theme Chords & Tabs

 

Peter Gunn Theme Chords & Tabs

Misc Soundtrack Chords & Tabs

Version: 1 Type: Bass Tab 0 ratings
1 star 2 stars 3 stars 4 stars 5 stars
comments

Peter Gunn Theme Bass Tab

   
Song Title: Peter Gunn Theme
Artist: Miscellaneous
----------------------------------------------

Peter Gunn Theme
from the early 60's TV series
Listen to the song to get correct timing.

G - - - - - - - - - - - - - - - - -| 
D - - - - - - - - - - - - - - - - -| 
A - - - - - - - - - - - - - - - - -| 
E -0-0-2-0-3-0-5-3-0-0-2-0-3-0-5-3-| (repeat)

G - - - - - - - - - - - - - - - - -| 
D - - - - - - - - - - - - - - - - -| 
A -0-0-2-0-3-0-5-3-0-0-2-0-3-0-5-3-|
E - - - - - - - - - - - - - - - - -| 
[ Tab from: http://www.guitartabs.cc/tabs/m/misc_soundtrack/peter_gunn_theme_btab.html ]
G - - - - - - - - - - - - - - - - -| 
D - - - - - - - - - - - - - - - - -| 
A - - - - - - - - - - - - - - - - -| 
E -0-0-2-0-3-0-5-3-0-0-2-0-3-0-5-3-|

G - - - - - - - - - - - - - - - - -| 
D - - - - - - - - - - - - - - - - -| 
A -2-2-2-2-2-2-2-1-0-0-0-0-0-0- - -|
E - - - - - - - - - - - - - - -3-3-

G - - - - - - - - - - - - - - - - -| 
D - - - - - - - - - - - - - - - - -| 
A - - - - -0-0-1-1- 2- - 2- - - - -| 
E -0-0-4-4 - - - - - - - - 0- - 0 -| 

Tabbed by Rikhav Shah!
FaDoing@aol.com





Submitted by:  Rikhav Shah (FaDoing@aol.com)


Comments