Misc Soundtrack - Once Upon A Time In Mexico Theme Chords & Tabs

 

Once Upon A Time In Mexico Theme Chords & Tabs

Misc Soundtrack Chords & Tabs

Version: 1 Type: Tab 0 ratings
1 star 2 stars 3 stars 4 stars 5 stars
comments

Once Upon A Time In Mexico Theme Tab

   
Once Upon a Time in Mexico theme

E |------------------------------------------------|
B |-----------5-----------5-----------5------------|
G |----6---6--6----6---6--6----6---6--6--7-6-7-----|
D |--7---7----7--7---7----7--7---7----7------------|
A |------------------------------------------------|
E |------------------------------------------------|

E |-------------------------------------------------------|
B |-----------6-----------6-----------6/8-8/6-6/5-5/3-5---|
G |----7---7--7----7---7--7----7---7--7-------------------|
D |--7---7----7--7---7----7--7---7----7-------------------|
A |-------------------------------------------------------|
E |-------------------------------------------------------|

E |----------------------------------------------------|
B |-----------8--------------8/10-10/8-8/6-6/5-6---8---|
G |----9---9--9------9----9--9-------------------------|
D |-10--10----10--10---10----10------------------------|
A |----------------------------------------------------|
E |----------------------------------------------------|

E |------------------------------------------------------------------|
B |-6-8--10p8------8-----------------5-------------------------------|
G |-----------10p9---10-9/7-10p9p7-5---7p5-4-2-0---------------------|
D |----------------------------------------------3-2--2-3-5-3h5p3-2--|
A |------------------------------------------------------------------|
E |------------------------------------------------------------------|
[ Tab from: http://www.guitartabs.cc/tabs/m/misc_soundtrack/once_upon_a_time_in_mexico_theme_tab.html ]
E |-0h1p0---------|
B |-------3-1-0---|
G |---------------|
D |---------------|
A |---------------|
E |---------------|

(Guitar 1): Am Dm Am Dm Am E
				(Guitar 2)  
      (Am)                       (Dm)          (Am)             (Dm)
  E |-----------------------------------------------------------------|
  B |-----------------------------------------------------------------|
  G |--9/14-(14)--14-14-12-10-9-9h10--10/12/10-9--14-14-12-10-9-9/10--|
  D |-----------------------------------------------------------------|
  A |-----------------------------------------------------------------|
  E |-----------------------------------------------------------------|

  E |-----------------------------------------------|
  B |-----------------------------------------------|
  G |-10/12/10-9--7/5-7-4-2-2/4/2-1-----------------|
  D |--------------------------------2h3-2-0--------|
  A |----------------------------------------3-2----|
  E |-----------------------------------------------|


(Guitar 1): Am Dm G E
				(Guitar 2)
      (Am)                   (Dm)          (G)           (E)
  E |--0-0-0---0-----0-0---0--1----1-1-0-1--5-3--5-3-1-0--1-0---0----|
  B |--1-----3-------1---3----3-3--3--------0----0--------0---3------|
  G |--2---------2---2--------2----2--------0----0--------1----------|
  D |--2-------------2--------0----0--------0----0--------2----------|
  A |--0-------------0--------0----0----------------------2----------|
  E |----------------------------------------------------------------|
Comments