Misc Soundtrack - Napolean Dynamite Theme Chords & Tabs

 

Napolean Dynamite Theme Chords & Tabs

Misc Soundtrack Chords & Tabs

Version: 1 Type: Tab 0 ratings
1 star 2 stars 3 stars 4 stars 5 stars
comments

Napolean Dynamite Theme Tab

Song:  Always and Forever
Artist: Kip Dynamite
Movie:  Napolean Dynamite
Tabber: Ivan Raczycki
This is the song that Kip sings at the end of Napolean Dynamite (the wedding scene).
I was listening to it and tabbed out my own version.
My first tab, by the way.

Main Riff
E|-------------------------------------------|
B|-------------------------------------------|
G|-------------------------------------------|
D|15p-13-11-10-8-10p----66-8-10-8-6p---------|
A|-------------------------------------------|
E|-------------------------------------------|

Now for the next part, I made up a guitar rhythm if you want to perform a song for it.

Verse
E|---------------------------------|
B|---------------------------------|
G|99999999---44444444--------------|
D|99999999---44444444--------------|
A|77777777---22222222--------------|
E|---------------------------------|
[ Tab from: http://www.guitartabs.cc/tabs/m/misc_soundtrack/napolean_dynamite_theme_tab.html ]
Chorus
E|--------------------------------|
B|--------------------------------|
G|--------------------------------|
D|5555---7777---55555555----------|
A|5555---7777---55555555----------|
E|3333---5555---33333333----------|

Alternate Chorus
E|--------------------------------|
B|--------------------------------|
G|--------------------------------|
D|5555---777-9-7-555555-----------|
A|5555---777-9-7-555555-----------|
E|3333---555-7-5-333333-----------|

Lyrics
Why do you love me? (verse)
Why do you need me? (verse)
Always and forever (chorus)
We met in a chat room (verse)
Now our love can fully bloom (verse)
Sure, the World Wide Web is great (verse)
But you, you make me "salvivate" (verse)
Yes, I love technology (verse)
But not as much as you, you see (verse)
But I still love technology (verse)
Always and forever (chorus)
Our love is like a flock of doves (verse)
Flying up to heaven above (verse)
Always and forever (chorus)
Always and forever (chorus)
Yes our love is truly great (verse)
Always and forever (chorus)

And that's the tab. It's my first, so e-mail me at legrandepoo@hotmail.com for
questions, complaints, or you just wanna chat. Au revior.

"Tina, come get some ham!"
-Napolean Dynamite
Comments