Misc Soundtrack - Munsters Theme Chords & Tabs

 

Munsters Theme Chords & Tabs

Misc Soundtrack Chords & Tabs

Version: 4 Type: Tab 0 ratings
1 star 2 stars 3 stars 4 stars 5 stars
comments

Munsters Theme Tab

-------------------------------------------------------------
The Munsters Theme Song
-------------------------------------------------------------
Tabbed by: efdubbleyooef
Email: efdubbleyooef@mailster.com
Tuning: standard

e|-----------------0-3-0-6-7-12-8-7-5-7-5-3-5-3-2-0---0-----|
B|--------------------------------------------------3-------|
G|----------------------------------------------------------|
D|----------------------------------------------------------|
A|-----1-2-----1-2------------------------------------------|
E|-0-------0------------------------------------------------|

e|-------------0-3-0-6-7-12-8-7-5-3-5-7-----------0---------|
B|--------------------------------------0-0-0-2-4-----------|
G|----------------------------------------------------------|
D|----------------------------------------------------------|
A|---1-2---1-2----------------------------------------------|
E|-0-----0--------------------------------------------------|

e|---------------12-12-12-10-8-10-7-8-5-5-5-10-8-7-8-5-7-4--|
B|----------------------------------------------------------|
G|----------------------------------------------------------|
D|----------------------------------------------------------|
A|----1-2----1-2--------------------------------------------|
E|-0------0-------------------------------------------------|
[ Tab from: http://www.guitartabs.cc/tabs/m/misc_soundtrack/munsters_theme_tab_ver_4.html ]
e|-0-3-0-6-7-12-8-7-5-7-5-3-0-(7-5-3-0)---------------------|
B|----------------------------------------------------------|
G|----------------------------------------------------------|
D|----------------------------------------------------------|
A|----------------------------------------------------------|
E|----------------------------------------------------------|

e|-10-10-13-12-10-8-10---3-0-6-7-10-0-10-8-7-8-5-7-4--------|
B|----------------------------------------------------------|
G|----------------------------------------------------------|
D|----------------------------------------------------------|
A|----------------------------------------------------------|
E|----------------------------------------------------------|

e|-0-3-0-6-7-12-8-7-5-7-5-3-5-3-2-0---0---------------------|
B|----------------------------------3-----------------------|
G|----------------------------------------------------------|
D|----------------------------------------------------------|
A|-----------------------------------------1-2--------------|
E|--------------------------------------0-------------------|

e|-0-3-0-6-7-12-8-7-5-7-5-3-0---7-12------------------------|
B|----------------------------------------------------------|
G|----------------------------------------------------------|
D|----------------------------------------------------------|
A|----------------------------------------------------------|
E|----------------------------------------------------------|
Comments