Misc Soundtrack - Munsters Theme Chords & Tabs

 

Munsters Theme Chords & Tabs

Misc Soundtrack Chords & Tabs

Version: 3 Type: Tab 0 ratings
1 star 2 stars 3 stars 4 stars 5 stars
comments

Munsters Theme Tab

      HEY I THINK THIS IS RIGHT BUT I'M NOT FOR SURE.
  
 E----------------------------------------------------------------
 B----------------------------------------------------------------
 G----------------------------------------------------------------
 D----------------------------------------------------------------
 A---------------------------------0-0-2-3-0-0-2-3-0-0-2-3-0-0-2-3
 E-0-0-2-3-0-0-2-3-0-0-2-3-0-0-2-3--------------------------------
  
 E-------------------------------------------------------------------
 B=------------------------------------------------------------------
 G-------------------------------------------------------------------
 D-------------------------------------------------------------------
 A---------------------------------0-0-2-3-0-0-2-3-0-0-2-3-0-0-3-3/--
 E-0-0-2-3-0-0-2-3-0-0-2-3-0-0-2-3-----------------------------------
[ Tab from: http://www.guitartabs.cc/tabs/m/misc_soundtrack/munsters_theme_tab_ver_3.html ]
 E--------------------------------------------------------------------
 B--------------------------------------------------------------------
 G -------------------------------------------------------------------
 D -------------------------------------------------------------------
 A/12-12-0-9*10-7*8-5-0-----------------------------------------------
 E----------------------10-10-0-7-8-5-6-3-0---------------------------

 E--------------------------------------------------------------------
 B--------------------------------------------------------------------
 G--------------------------------------------------------------------
 D--------------------------------------------------------------------
 A---------------------------------2-2-4-5-2-2-4-5-2-2-4-5-2-2-5-5//--
 E-2-2-4-5-2-2-4-5-2-2-4-5-2-2-4-5------------------------------------
     now just play the third row and then the first 2 rows but when you
hit the last not you slide down to 12 hit once and you done.
Comments