Misc Soundtrack - Mortal Kombat Theme Chords & Tabs

 

Mortal Kombat Theme Chords & Tabs

Misc Soundtrack Chords & Tabs

Version: 1 Type: Tab 0 ratings
1 star 2 stars 3 stars 4 stars 5 stars
comments

Mortal Kombat Theme Tab

Mortal Kombat Theme-The Immortals(I think)
Tabbed by Robert Hamner
I don't know that this is right, but it sounds close enough to me.  I don't know what you would
have to do to your guitar to get it to sound like what they do on the cd.  Just try distortion and
delay?
intro, about 4 seconds into it
e---------------------------------------------------------------------------------------------|
b------------------------------------8--------------------------------------------------------|
g--------------7---9-7--------9---------- 9---------------5---7-5----------5---5-4------------|
d--7-7-10-7----7------10-10---10---10---10--5-5-9-5----5-----3-3-7-3---3----------------------|
a---------------------------------------------------------------------------------------------|
e---------------------------------------------------------------------------------------------|

next part
e---------------------------------------------------------------------------------------------|
b---------------------------------------------------------------------------------------------|
g---------------------------------------------------------------------------------------------|
d---------------------------------------------------------------------------------------------|
a--12-12-12-12-10-10-12-12-12-12-10-7-12-12-12-12-10-15-12-12-12-10-12-12-12-12---------------|
e---------------------------------------------------------------------------------------------|
[ Tab from: http://www.guitartabs.cc/tabs/m/misc_soundtrack/mortal_kombat_theme_tab.html ]
then                                                              last time on that part, end with this
e-------------------------------------------]--------------------------------------------------|
b-------------------------------------------]--------------------------------------------------|
g-------------------------------------------]--------------------------------------------------|
d----14------------------------------------]---------------------------------------------------|
a-12-----12-15--12-13--12-15-12-13-10]-10-10-10-12-12------------------------------------------|
e-------------------------------------------]--------------------------------------------------|

e----------------------------------------------------------------------------------------------|
b----------------------------------------------------------------------------------------------|
g----------------------------------------------------------------------------------------------|
d----------------------------------------------------------------------------------------------|
a-12-12-10------12-12-12-10--------------------------------------------------------------------|
e------------12-----------------10-------------------------------------------------------------|

Everyone of these made be an octave lower, or some parts, or whatever.  Just mess with it until
you find something that sounds somewhat like it.  I don't remember what order they're played in
either.
Comments