Misc Soundtrack - Mission Impossible Theme Chords & Tabs

 

Mission Impossible Theme Chords & Tabs

Misc Soundtrack Chords & Tabs

Version: 8 Type: Tab 0 ratings
1 star 2 stars 3 stars 4 stars 5 stars
comments

Mission Impossible Theme Tab

Hey Yo, i checked out the other mission impossible tabs and thought i should send this 
in.

e---------------------------------------------------------------------------|
B---------------------------------------------------------------------------|
G---------------------------------------------------------------------------|
D---------------------------------------------------------------------------|
A---0--0--0--0--3--5----0--0--0--0------------------------------------------|
E-----------------------------------3-4-------------------------------------|

And then:

e---------------------------------------------------------------------------|
B---------------------------------------------------------------------------|
G---------------------------------------------------------------------------|
D---------------------------------------------------------------------------|
A---0--0--0--0--3--5----0--0--0--0--3-4-------------------------------------|
E---------------------------------------------------------------------------|
                           Play This 4 Times From The Beginning
[ Tab from: http://www.guitartabs.cc/tabs/m/misc_soundtrack/mission_impossible_theme_tab_ver_8.html ]
Then After That Play This Part:
e---------------------------------------------------------------------------|
B---------------------------------------------------------------------------|
G---------------------------------------------------------------------------|
D---------------------------------------------------------------------------|
A---0--0--0--0--3--5----0--0--0--0------------------------------------------|
E-----------------------------------3-4-------------------------------------|
Then This:
e---------------------------------------------------------------------------|
B---------------------------------------------------------------------------|
G---------------------------------------------------------------------------|
D---------------------------------------------------------------------------|
A---0--0--0--0--3--5----0--0--0--0--0---------------------------------------|
E--------------------------------------3------------------------------------|
Then This Part:
e---------------------------------------------------------------------------|
B---------------------------------------------------------------------------|
G---------------------------------------------------------------------------|
D---------------------------------------------------------------------------|
A---0--0--0--0--3--5----0--0--0--0-----------------3x-----------------------|
E-----------------------------------3-4-------------------------------------|

And The Final Part:

e---------------------------------------------------------------------------|
B---------------------------------------------------------------------------|
G---------------------------------------------------------------------------|
D---------------------------------------------------------------------------|
A---0--0--0--0--3--5----0--0--0--0--3--5------------------------------------|
E-----------------------------------------0---------------------------------|


Thats It Really, Happy Playing And If Theres Any Probs Email Me At SKYLINE_BOOM@hotmail.co.uk
Comments