Misc Soundtrack - Mission Impossible Theme Chords & Tabs

 

Mission Impossible Theme Chords & Tabs

Misc Soundtrack Chords & Tabs

Version: 6 Type: Tab 0 ratings
1 star 2 stars 3 stars 4 stars 5 stars
comments

Mission Impossible Theme Tab

Artist: Misc.
Song: Mission Impossible
Tabbed by: John Leadman

I've seen so many tabs for stuff like this I figured I would give it a shot.


------------------------------------------------------------------------------|
--------------------------------------------------1--------1--------1---------|
-----------------------------------------------------2--------2--------2------|
-----------0-----------------------0--------------------2--------1--------0---|
-0--0--3------0--0--------0--0--3-----0--0------------------------------------|
--------------------3--4--------------------3--4------------------------------|

[ Tab from: http://www.guitartabs.cc/tabs/m/misc_soundtrack/mission_impossible_theme_tab_ver_6.html ]
----------------------------------------4--------3--------2--1--0-------------|
-------------1--3-----------------1--------1--------1-------------------------|
-------2--2--------2--2--0--1--2-----2--------2--------2----------------------|
----0--------------------------------------------------------------3--0-------|
-3-----------------------------------------------------------------------0----|
------------------------------------------------------------------------------|


-------4--------3--------2--1--0--------0-----3--5----------------------------|
-1--------1--------1--------------0--3-----0----------------------------------|
----2--------2--------2-------------------------------------------------------|
------------------------------------------------------------------------------|
------------------------------------------------------------------------------|
------------------------------------------------------------------------------|
Comments