Misc Soundtrack - Mission Impossible Chords & Tabs

 

Mission Impossible Chords & Tabs

Misc Soundtrack Chords & Tabs

Version: 3 Type: Tab 2 ratings
1 star 2 stars 3 stars 4 stars 5 stars
comments

Mission Impossible Tab

I can't take credit for this, I just found a bond theme played it and i realized
it was actually the theme to mission impossible. It's good so enjoy it. The 
person who actually transcribed it is Arthur Asseo.

[ Tab from: http://www.guitartabs.cc/tabs/m/misc_soundtrack/mission_impossible_tab_ver_3.html ]
First Part:
e |------------------------------------------------------------------------|            
B|------------------------------------------------------------------------|
G|------------------------------------------------------------------------|
D|------------------------------------------------------------------------|
A|---------------1-------3-----------------------------------------------|
E|--3-----3---------------------3-----3-----1-----2------3-------3-----|

Second Part:
e |-----6----3----------6------3-----------6------3---------------------------|
B|-----------------3------------------------------------------------------------|
G|-----------------------------------6-------------------5---------3-----5----|
D|------------------------------------------------------------------------------|
A|-------------------------------------------------------------------------------|
E|-------------------------------------------------------------------------------|
Comments