Misc Soundtrack - Magic Roundabout Theme Chords & Tabs

 

Magic Roundabout Theme Chords & Tabs

Misc Soundtrack Chords & Tabs

Version: 1 Type: Tab 0 ratings
1 star 2 stars 3 stars 4 stars 5 stars
comments

Magic Roundabout Theme Tab

Theme Song - Magic Roundabout.
 Tabbed by Laoni And Zara - yumyumyumyum@another.com.
  
e|---------------------------------------------------|
B|---------------------------------------------------|
G|---------------------------------------------------|
D|--14--14--14--9--9---11--11--11--7--7---12--12--12-|
A|--14--14--14--9--9---11--11--11--7--7---12--12--12-|
E|--12--12--12--7--7---9---9---9---5--5---10--10--10-|


e|----------------------------|
B|----------------------------|     |------|
G|----------------------------|     |------|
D|--7--7---13--13--13--9--9---| x2  |--14--|
A|--7--7---13--13--13--9--9---|     |--14--|
E|--5--5---11--11--11--7--7---|     |--12--|


HaVe FuN DeAr HeArTs 
:: Ultimate Guitar Archive :: 
http://www.ultimate-guitar.com 




[ Tab from: http://www.guitartabs.cc/tabs/m/misc_soundtrack/magic_roundabout_theme_tab.html ]
Comments