Misc Soundtrack - Lord Of The Rings Theme Chords & Tabs

 

Lord Of The Rings Theme Chords & Tabs

Misc Soundtrack Chords & Tabs

Version: 5 Type: Tab 0 ratings
1 star 2 stars 3 stars 4 stars 5 stars
comments

Lord Of The Rings Theme Tab

   
-------------------------------------------------------------------------------
			     Lord of the Rings - Misc Soundtrack
-------------------------------------------------------------------------------
Tabbed by: Joseph Marcus
Email:odysseyx5169@hotmail.com

Tuning:EBGDAE
[ Tab from: http://www.guitartabs.cc/tabs/m/misc_soundtrack/lord_of_the_rings_theme_tab_ver_5.html ]
e|--------4/7-4------------4--7--9/12-11--7--4h5-----------------------------|
B|-5--7----------7--5~--5------------------------7---------------------------|
G|---------------------------------------------------------------------------|
D|---------------------------------------------------------------------------|
A|---------------------------------------------------------------------------|
E|---------------------------------------------------------------------------|

e|--------4/7-4------------4--7--9~~--7--4-4---------------------------------|
B|-5--7----------7--5~--5---------------------7--5h7p5-----------------------|
G|---------------------------------------------------------------------------|
D|---------------------------------------------------------------------------|
A|---------------------------------------------------------------------------|
E|---------------------------------------------------------------------------|




| /  slide up
| \  slide down
| h  hammer-on
| p  pull-off
| ~  vibrato
===============================================================================
Comments