Misc Soundtrack - Lord Of The Rings Theme Chords & Tabs

 

Lord Of The Rings Theme Chords & Tabs

Misc Soundtrack Chords & Tabs

Version: 2 Type: Tab 0 ratings
1 star 2 stars 3 stars 4 stars 5 stars
comments

Lord Of The Rings Theme Tab

This is all i could get out of this awesome song from the Lord of the Rings
soundtrack, one of the best soundtracks ever. This is my first time sumbitting
a tab, so if you an error PM or Email me. Enjoy
                                                            -Gort

[ Tab from: http://www.guitartabs.cc/tabs/m/misc_soundtrack/lord_of_the_rings_theme_tab_ver_2.html ]
e|-------------------------------------------------------------------------|
B|----------1--0--1--3----------------------1--0--1--3---5-----------------|
G|----2-2-2------------2----2-0-2----2-2-2---------------------------------|
D|--2------------------------------2---------------------------------------|
A|-------------------------------------------------------------------------|
E|-------------------------------------------------------------------------|




e|-------------------------------------------------------------------------|
B|-----------1--0--1--1-1-3-----3------------------------------------------|
G|----2-2-2-----------------2-----3-2--2-3--0------------------------------|
D|--2----------------------------------------------------------------------|
A|-------------------------------------------------------------------------|
E|-------------------------------------------------------------------------|
Comments