Misc Soundtrack - Lord Of The Rings Chords & Tabs

 

Lord Of The Rings Chords & Tabs

Misc Soundtrack Chords & Tabs

Version: 1 Type: Tab 3 ratings
1 star 2 stars 3 stars 4 stars 5 stars
comments

Lord Of The Rings Tab

			#################################
			#				#
			#	This Guitar tab is	#
			#       Maked by Sigurd.	#
			#	sig-lun@online.no	#
			#				#
			#################################

				Lord of thr rings

[ Tab from: http://www.guitartabs.cc/tabs/m/misc_soundtrack/lord_of_the_rings_tab.html ]
e|--------------------------------------------------------------|
b|------0-3--0-------0--3--5--8--------3--0-1-0-----------------|
g|--0-2---------2-0-------------12-11-----------3--0----------0-|
D|----------------------------------------------------3--3-3----|
A|--------------------------------------------------------------|
E|--------------------------------------------------------------|

e|------------------------------------------------------------------------|
b|-2-5-6--5-3-1--3-5-3--1-0---------------3-5-6-5--6--8--6-8--10-10-10-10-|
g|--------------------------2--0--0-0--2----------------------------------|
D|------------------------------------------------------------------------|
A|------------------------------------------------------------------------|
E|------------------------------------------------------------------------|


Hope you have fun!!



Back 
Comments