Misc Soundtrack - Law And Order Theme Chords & Tabs

 

Law And Order Theme Chords & Tabs

Misc Soundtrack Chords & Tabs

Version: 1 Type: Tab 0 ratings
1 star 2 stars 3 stars 4 stars 5 stars
comments

Law And Order Theme Tab

   
-------------------------------------------------------------------------------
			     LAW AND ORDER THEME
-------------------------------------------------------------------------------
Tabbed by: themaan (Ben Harris)

Tuning:Regular

This would normally be on bass, these tabs are transcribed for guitar.

e|---------------------------------------------------------------------------|
B|----------------------------------------------3-3-3-3-3-3h5----------------|
G|---------------------------------------------------------------------------|
D|---------------------------------------------------------------------------|
A|---------0-0-0-2-3------------0-0-0-2-3-2----------------------------------|
E|---0-5------------------0-5------------------------------------------------|
[ Tab from: http://www.guitartabs.cc/tabs/m/misc_soundtrack/law_and_order_theme_tab.html ]
e|------------------------------------------------10-10-10-10-10-10----------|
B|---------------------------------------------------------------------------|
G|---------------------------------------------------------------------------|
D|---------------------------------------------------------------------------|
A|---------0-0-0-2-3------------0-0-0-2-3-2----------------------------------|
E|---0-5------------------0-5------------------------------------------------|

Then the flute (or whatever it is, all I know is guitar folks =)) kicks in.

After the flute:

e|---------------------------------------------------------------------------|
B|---------------------------------------------------------------------------|
G|---------------------------------------------------------------------------|
D|---------------------------------------------------------------------------|
A|----7-7-7-5-5------7-7-7-5-5-5-7------(Repeat this 2x)---------------------|
E|---------------------------------------------------------------------------|

See, veeery easy. Happy playing. If you like the tab please rate it, =) thanks!

h = hammer-on
Comments