Misc Soundtrack - King Of The Hill Theme Chords & Tabs

 

King Of The Hill Theme Chords & Tabs

Misc Soundtrack Chords & Tabs

Version: 1 Type: Tab 1 rating
1 star 2 stars 3 stars 4 stars 5 stars
comments

King Of The Hill Theme Tab

er, this is my 1st tab so if it's craptacular, don't bother telling me cuz I say it to myself lotsa times. hmm, yeah.
[ Tab from: http://www.guitartabs.cc/tabs/m/misc_soundtrack/king_of_the_hill_theme_tab.html ]
*
E|---------------------------------------------
B|---------------------------------------------
G|---------------------------------------------
D|---------------------------------------------
A|-------------------4-2-----------------------
E|--0-00-00-400005555----0-00-00-40000-5-4-2-42


E|-------------------------------------------00
B|-------------------------------------------00
G|-------------------------------------------99
D|-------------------------------------------99
A|-------------------4-2--7--------------------
E|--0-00-00-400005555-------9-7-5--444-5-4-0---

(Optional)

A|--4-4-4-4-----------
E|----------4-4-4-4-45 (*repeat from the start)


Comments