Misc Soundtrack - King Arthur Theme Chords & Tabs

 

King Arthur Theme Chords & Tabs

Misc Soundtrack Chords & Tabs

Version: 1 Type: Tab 0 ratings
1 star 2 stars 3 stars 4 stars 5 stars
comments

King Arthur Theme Tab

This is the vocal from "King Athur" that Bors' woman sings.  It's done by Caitlyn 
and here it is in guitar.

e------------------------------------------------------------------------|
B----------4--2-------------------------------4-4--2---------------------|
G-1--3/4-------------1/3--3-1-----13/4-------------1/3--1---------------|
D------------------4-----------------------------------4-----------------|
A------------------------------------------------------------------------|
E------------------------------------------------------------------------|
Land of bear and land of eagle, land that gave us birth and blessing,

e-----------------------------------------------------------|    (played slighty differently)
B----------4--2-------------------------------4-4--2--------|
G-1--3/4-------------1/3--3-1-----13/4-------------1/3--1--|
D------------------4-----------------------------------4----|
A-----------------------------------------------------------|
E-----------------------------------------------------------|
Land that called us ever homewards.  We will go home across the mountains.


e---------------------------------------------------------------------------|
B-7--6/7--9---46/77/6----76/7--9--9-6---2-6---4--------------------------|
G---------------------------------------------------------------------------|
D---------------------------------------------------------------------------|
A---------------------------------------------------------------------------|
E---------------------------------------------------------------------------|
We will go home, we will go home, we will go home across the mountains.

[ Tab from: http://www.guitartabs.cc/tabs/m/misc_soundtrack/king_arthur_theme_tab.html ]
e------------------------------------------------------------------------|
B-7--6/7--9---46/77/6----76/7--9--------------------------------------|
G---------------------------------------------------1-1---1/3--3-1-------|
D------------------------------------------------------------------------|
A------------------------------------------------------------------------|
E------------------------------------------------------------------------|
We will go home, singing our songs, we will go home across the mountains.

e----------------------------------------------------------------------------|
B----------4-------------------------------------4-4--2----------------------|
G-1--3/4----1---------1/3--3-1-----13/4----------------1/33/1--------------|
D------------------4---------------------------------------4-----------------|
A----------------------------------------------------------------------------|
E----------------------------------------------------------------------------|
Hear our singing, hear our longing.  We will go home across the mountains.


e---------------------------------------------------------------------------|
B-7--6/7--9---46/77/6----76/7--9--9-6---2-6---4--------------------------|
G---------------------------------------------------------------------------|
D---------------------------------------------------------------------------|
A---------------------------------------------------------------------------|
E---------------------------------------------------------------------------|
We will go home, we will go home, we will go home across the mountains.


e------------------------------------------------------------------------|
B-7--6/7--9---46/77/6----76/7--9--------------------------------------|
G---------------------------------------------------1-1---1/3--3-1-------|
D------------------------------------------------------------------------|
A------------------------------------------------------------------------|
E------------------------------------------------------------------------|
We will go home, singing our songs, we will go home across the mountains.
Comments