Misc Soundtrack - Kill Bill Theme Chords & Tabs

 

Kill Bill Theme Chords & Tabs

Misc Soundtrack Chords & Tabs

Version: 1 Type: Tab 0 ratings
1 star 2 stars 3 stars 4 stars 5 stars
comments

Kill Bill Theme Tab

Kill Bill Theme.......By Paul Dunn





Intro
-------------------------------------------------------------
-------------------------------------------------------------
-------------------------------------------------------------
-------------------------------------------------------------
----5-h-7---------------------------5-h-7--------------------
-----------0--0--0-0-0-0-0-0---------------0--0--0-0-0-0-0-0-


-------------------------------------------------------------
-------------------------------------------------------------
-------------------------------------------------------------
-------------------------------------------------------------
----5-h-7---------------------------5-h-7--------------------
-----------0--0--0-0-0-0-0-0---------------0--0--0-0-0-0-0-0-


-------------------------------------------------------------
-------------------------------------------------------------
-------------------------------------------------------------
--5----7-----------------------------------------------------
--5----7-----5-h-7-------------------------------------------
--3----5------------0--0--0-0-0-0-0-0----------------...etc


lead Guitar Part

[ Tab from: http://www.guitartabs.cc/tabs/m/misc_soundtrack/kill_bill_theme_tab.html ]
-------------------------------------------------------------
--10-b--10-p-8--h--10--10-p-8-s-7----5---7--8--s--12---10----
-------------------------------------------------------------
-----------------------------------------------------------9-
-------------------------------------------------------------
-------------------------------------------------------------



-------------------------------------------------------------
--10-b--10-p-8--h--10--10-p-8-s-7----5---7--8----------------
-----------------------------------------------7---6---------
-------------------------------------------------------------
-------------------------------------------------------------
-------------------------------------------------------------




ending chords



---------------------------------------------------------------------
---------------------------------------------------------------------
---------------------------------------------------------------------
---5----7----9----12----14-------------------------------------------
---5----7----9----12----14-------------------------------------------
---3----5----7----10----12-------------------------------------------



Tabed By Paul Dunn 
Comments