Misc Soundtrack - Jurassic Park Theme Chords & Tabs

 

Jurassic Park Theme Chords & Tabs

Misc Soundtrack Chords & Tabs

Version: 1 Type: Tab 0 ratings
1 star 2 stars 3 stars 4 stars 5 stars
comments

Jurassic Park Theme Tab

Song: Jurassic Park Theme
By: John Williams
Tabber: *mUmBa*

KEY:
~= ring
~~~= ring for a long time
p= pull off
h= hammer on

This is a version that my schools marching band played and its really cool so enjoy ^_^!

|---------------------------------------------------------------------------|
|---------------------------------------------------------------------------|
|----------------------------------12-12~--11--------------11---------------|
|-12~--12p11-12~--12p11-12~-14-14~------------12-14~-11--------12-14~-------|
|------------------------------------------------------12~------------------|
|---------------------------------------------------------------------------|

|---------------------------------------------------------------------------|
|---------------------------------------------------------------------------|
|-14----12~-11-11~-------------------------------------------------12-12~---|
|----12------------14-14~--12p11-12~--12p11-12~--12p11-12~--14-14~----------|
|---------------------------------------------------------------------------|
|---------------------------------------------------------------------------|

|---------------------------------------------------------------------------|
|---------------------------------------------------------------------------|
|-11---------------11--------14----12~-11-11~-------------------------------|
|----12-14~-11--------12-14~----12------------14-14~------12-12-12----12-12-|
|--------------12~-------------------------------------12~---------12~------|
|---------------------------------------------------------------------------|

|---------------------------------------------------------------------------|
|--------------------------------------------------------------12----15-14--|
|-----------------------------------------11-11-11----14-14-11----11--------|
|-14-14-11~--12p11-12----12-12~-14-11--------------12-----------------------|
|---------------------12~--------------12~----------------------------------|
|---------------------------------------------------------------------------|

|---------------------------------------------------------------------------|
|-15~-----------------------------------------------------------------------|
|--------12-12~-11~--------------------------------------12-12~-11----------|
|-----12------------14~--12~-12p11-12~--12p11-12~-14-14~-----------12-14~---|
|---------------------------------------------------------------------------|
|---------------------------------------------------------------------------|
[ Tab from: http://www.guitartabs.cc/tabs/m/misc_soundtrack/jurassic_park_theme_tab.html ]
|---------------------------------------------------------------------------|
|---------------------------------------------------------------------------|
|--------11--------14----12~-11-11~-----------------------------------------|
|-11--------12-14~----12------------14-14~--12p11-12~-------12p11-12~-------|
|----12~---------------------------------------------12-10~----------12-10~-|
|---------------------------------------------------------------------------|

|---------------------------------------------------------------------------|
|---------------------------------------------------------------------------|
|---------------------------------------------------------------------------|
|-12p11-11h12~---------12~-11~--12p11-12~------12p11-12~-------12p11-11h12~-|
|--------------12~-----------------------12-10~---------12-10~--------------|
|------------------10~------------------------------------------------------|

|---------------------------------------------------------------------------|
|---------------------------------------------------------------------------|
|---------------------------------------------------------------------------|
|---------12~-11~-12~~~----------------------------------12-12~--11---------|
|-12~--------------------12~-12p11-12~--12p11-12~-14-14~------------12-14~--|
|-----10~-------------------------------------------------------------------|

|---------------------------------------------------------------------------|
|---------------------------------------------------------------------------|
|---------------------------------------------------------------------------|
|---------11--------14----12~-11-11~-----------12~-11~-12~12~-12p11-12~12~--|
|-11~--------12-14~----12------------14-14~~~-------------------------------|
|-----12~-------------------------------------------------------------------|

|---------------------------------------------------------------------------|
|---------------------------------------------------------------------------|
|------------------12-12~-11---------------11--------14----12~-11-11~-------|
|-12p11-12~-14-14~-----------12-14~-11--------12-14~----12------------14-14~|
|--------------------------------------12~----------------------------------|
|---------------------------------------------------------------------------|

|---------------------------------------------------------------------------|
|---------------------------------------------------------------------------|
|---------------------------------------------------------------------------|
|-12p11-12~~~~~~~~~~~~~~~~~~~~~~~~~~~~~~~~~~~~~~~~~~~~~~~~~~~~~~~~~~~~~~~~~~|
|---------------------------------------------------------------------------|
|---------------------------------------------------------------------------|

Comments