Misc Soundtrack - James Bond Theme Chords & Tabs

 

James Bond Theme Chords & Tabs

Misc Soundtrack Chords & Tabs

Version: 9 Type: Tab 0 ratings
1 star 2 stars 3 stars 4 stars 5 stars
comments

James Bond Theme Tab

   
===============================|
James Bond Theme               |
By Joe Passby / YouKnowYourRite|
===============================|

|---|-------|
| A | Intro |
|---|-------|
|Tempo = 128|
|-----------|
|3 Time     |
|4 Signature|
|-----------|

e-------------------------------------|
B-------------------------------------|
G--4--4------4--4------4--4--4--4--4--|
D--4--4------4--4------4--4--4--4--4--|
A--2--2--2---2--2--2---2--2--2--2--2--|
E-------------------------------------|


=================================


|---|----------|
| B | Main Riff|
|---|----------|
|Tempo  =  129 |
|--------------|
|4 Time        |
|4 Signature   |
|--------------|

e---------------------------------------|-------------------------------------|
B---------------------------------------|-------------------------------------|
G---------------------------------------|-------------------------------------|
D---------------------------------------|-------------------------------------|
A---------------------------------------|-------------------------------------|
E-0--2--2--2--2--0--0--0--0--3--3--3--2-|0--2--2--2--2--0--0--0--0--3--3--3--2|

e-------------------------------------|
B-------------------------------------|
G-------------------------------------|
D-------------------------------------|
A-------------------------------------|
E0--2--2--2--2--0--0--0--0--3--3--3--2|

e---------------|
B---------------|
G---------------|
D--1--0---------|
A-------2--0--2-|
E---------------|

========================

[ Tab from: http://www.guitartabs.cc/tabs/m/misc_soundtrack/james_bond_theme_tab_ver_9.html ]
|---|-----------|
| C | Interlude |   
|---|-----------|
|  Tempo = 129  |
|---------------|
|4  Time        |
|4  Signature   |
|---------------|

e---------------------|----------------------|
B---------------------|----------------------|
G--------8--7---------|----------------------|
D-----5--------5--8--9|--5--7--5--4-----2----|
A--7------------------|--------------2-----4-|
E---------------------|----------------------|

e---------------------|----------------------|
B---------------------|----------------------|
G--------8--7---------|----------------------|
D-----5--------5--8--9|--5--7--5--4-----1--2-|
A--7------------------|--------------2-------|
E---------------------|----------------------|

e---------------------|----------------------|
B---------------------|----------------------|
G--------8--7---------|----------------------|
D-----5--------5--8--9|--5--7--5--4-----2----|
A--7------------------|--------------2-----4-|
E---------------------|----------------------|

e---------------------|----------------------|
B---------------------|----------------------|
G--------8--7---------|----------------------|
D-----5--------5--8--9|--5--7--5--4-----1--2-|
A--7------------------|--------------2-------|
E---------------------|----------------------|

e----------------------|---------------------|
B----------------------|---------------------|
G----------------------|---------------------|
D--2--2----2--4--2--4--|--5--5----5--4--2--4-|
A----------------------|---------------------|
E----------------------|---------------------|
Comments