Misc Soundtrack - James Bond Chords & Tabs

 

James Bond Chords & Tabs

Misc Soundtrack Chords & Tabs

Version: 4 Type: Tab 1 rating
1 star 2 stars 3 stars 4 stars 5 stars
comments

James Bond Tab

James Bond (the correct version)
I have always liked ole james so when i got my guitar that is what i wanted 
to learn so i looked everywhere to try to find a right tab and i couldnt.
Finally i figured it out and this is how it goes...........oh one more thing
if you got a problem with the tab then or you think you could do better 
then you can email me at: i_dont_give_a_crap_.com....get me!




e----------------------------------------------------------------
b----------------------------------------------------------------
g----------------------------------------------------------------
d----------------------------------------------------------------
a-2---3---4---3---2--2--3--3--4--4--3--3--2-2-2-3-3-3-4-4-4-3-3-3
E----------------------------------------------------------------
[ Tab from: http://www.guitartabs.cc/tabs/m/misc_soundtrack/james_bond_tab_ver_4.html ]
e----------------------------------------------------------------
b----------------------------------------------------------------
g----------------------------------------------------------------
d------------------------------------------2p0-------------------
a-------------------------------------------------2p0-2----------
E-0--1-1-1-0-0--0-0-2-2-2/1-(repeat1x)---------------------------

e---------------------------------------12-12-------9-9----12-9-12-9-12
b----------------------------------------------------------------------
g----------------------------------------------------------------------
d----------------------------------------------------------------------
a--7-7--7-9-7-9--10-10--10-9-10-9--------------------------------------
E-----------------------------------------------0--------0-------------
Comments