Misc Soundtrack - Jackass Theme Chords & Tabs

 

Jackass Theme Chords & Tabs

Misc Soundtrack Chords & Tabs

Version: 2 Type: Tab 0 ratings
1 star 2 stars 3 stars 4 stars 5 stars
comments

Jackass Theme Tab

   
=-=-=-=-=-=-=-=-=-=-=-=-=-=
Jackass Theme
Tabbed by Leandro Koren
leandro_koren@yahoo.com.ar
=-=-=-=-=-=-=-=-=-=-=-=-=-=

I think is the closest Jackass theme transcription I ever seen.
I don't remember right now how many times they play it or if they repeat any of theses parts.

With a little distorsion.
[ Tab from: http://www.guitartabs.cc/tabs/m/misc_soundtrack/jackass_theme_tab_ver_2.html ]
     G7 C    D          C G7                F7 G7
E|-|----------------------------------------------|-|
B|-|--3h5--5/7--7-7---7-5-3-0-0-0-0-0-0-0-0--1-3--|-|
G|-|--4h5--5/7--7-7---7-5-4-0-0-0-0-0-0-0-0--2-4--|-|
D|-|----------------------------------------------|-|
A|-|----------------------------------------------|-|
e|-|----------------------------------------------|-|
      G7                 C D
E|-|----------------------------------------|-|
B|-|--0-0-0-0-0-0-0-0--3-5-7-7-7-7-7-7-7-7--|-|
G|-|--0-0-0-0-0-0-0-0--4-5-7-7-7-7-7-7-7-7--|-|
D|-|----------------------------------------|-|
A|-|----------------------------------------|-|
e|-|----------------------------------------|-|
     G7 C D                  C G7 
E|-|------------------------------0--|-|
B|-|--3-5-7-7-7-7-7-7-7-7--7-5-3--0--|-|
G|-|--4-5-7-7-7-7-7-7-7-7--7-5-4--0--|-|
D|-|------------------------------0--|-|
A|-|---------------------------------|-|
e|-|---------------------------------|-|
Comments