Misc Soundtrack - Inspector Gadget Theme Chords & Tabs

 

Inspector Gadget Theme Chords & Tabs

Misc Soundtrack Chords & Tabs

Version: 4 Type: Tab 0 ratings
1 star 2 stars 3 stars 4 stars 5 stars
comments

Inspector Gadget Theme Tab

Here's part of the song.
It's the main part that everyone
seems to want to learn.

[ Tab from: http://www.guitartabs.cc/tabs/m/misc_soundtrack/inspector_gadget_theme_tab_ver_4.html ]
e:--------------------------------------------
B:--------------------------------------------
G:--------------------------------------2-1---
D:------3-5-----4-----3------------3-5--------
A:0-2-3------4-----3-----2---0-2-3------------
E:--------------------------------------------


e:--------------------------------------------
B:--------------------------------------------
G:--------------------------------------2-1---
D:------3-5-----4-----3------------3-5--------
A:0-2-3------4-----3-----2---0-2-3------------
E:--------------------------------------------

It sounds pretty good once you get it down.
ROCK ON!!
Comments