Misc Soundtrack - Halloween Theme Chords & Tabs

 

Halloween Theme Chords & Tabs

Misc Soundtrack Chords & Tabs

Version: 6 Type: Tab 0 ratings
1 star 2 stars 3 stars 4 stars 5 stars
comments

Halloween Theme Tab

Here is the theme to "Halloween". The tightest seriel killer movie i have ever seen.
This movie is the bomb. With the tightest them to it. Here u go

Theme > Halloween
Tuning > Standard (eBGDAE)
                                4x
e|-13-------13-------13----14-----|
B|----11-11----11-11----11----11--|
G|--------------------------------|
D|--------------------------------|
A|--------------------------------|
E|--------------------------------|
                                2x
e|-11-----11-----11---12----------|
B|----9-9----9-9----9----9--------|
G|--------------------------------|
D|--------------------------------|
A|--------------------------------|
E|--------------------------------|
[ Tab from: http://www.guitartabs.cc/tabs/m/misc_soundtrack/halloween_theme_tab_ver_6.html ]
                                4x
e|-13-------13-------13----14-----|
B|----11-11----11-11----11----11--|
G|--------------------------------|
D|--------------------------------|
A|--------------------------------|
E|--------------------------------|


e|-11-----11-----11---12----------|
B|----9-9----9-9----9----9--------|
G|--------------------------------|
D|--------------------------------|
A|--------------------------------|
E|--------------------------------|

e|--9-----9------9----10----------|
B|----7-7----7-7----7----7--------|
G|--------------------------------|
D|--------------------------------|
A|--------------------------------|
E|--------------------------------|


Well, there you have it. this is 100% correct. I am sure of it. HAVE FUN!!
Comments