Misc Soundtrack - Gremlins Theme Chords & Tabs

 

Gremlins Theme Chords & Tabs

Misc Soundtrack Chords & Tabs

Version: 1 Type: Bass Tab 0 ratings
1 star 2 stars 3 stars 4 stars 5 stars
comments

Gremlins Theme Bass Tab

Gizmo theme from gremliins
just a catchy little tune i think i have spaced
written this tab correctly this time so i hope it gets posted
anybody with tab to the main bit of musseta's waltz as played
in rent the musical please getr in touch

tabbed by:marc sebastian
email:msebastian10@hotmail.com
[ Tab from: http://www.guitartabs.cc/tabs/m/misc_soundtrack/gremlins_theme_btab.html ]
g-5------0-2-0-2-5-3-2-0------|
d-----2-----------------------|
a-----------------------------|
e-----------------------------|



g---0-1--------0-1----3----0--|
d-3-----3--0-3-----3-----3----|
a-----------------------------|
e-----------------------------|



g-00-----8--5---5---5-8-6-5---|
d----3-1------8---8----------8|
a-----------------------------|
e-----------------------------|



g-----------0-1---3---0-------|
d-5-6-3-0-3-----3---3---------|
a-----------------------------|
e-----------------------------|
Comments