Misc Soundtrack - Godfather Theme Chords & Tabs

 

Godfather Theme Chords & Tabs

Misc Soundtrack Chords & Tabs

Version: 8 Type: Tab 0 ratings
1 star 2 stars 3 stars 4 stars 5 stars
comments

Godfather Theme Tab

   
Godfather Theme Tune

Its on godfather dont know who made it as far as i know its by godfather film people

Standard Tuning (E A D G B E)

Tabbed By Danny Davies
[ Tab from: http://www.guitartabs.cc/tabs/m/misc_soundtrack/godfather_theme_tab_ver_8.html ]
E|---0-3-2-0-3-0-2---------0-3-2-0-3-0-2-0----------------2----------------|
B|-0---------------1-3-0--0----------------1-0--------1-4------1--4--5-----|
G|----------------------------------------------2---2-------2--------------|
D|-------------------------------------------------------------------------|
A|-------------------------------------------------------------------------|
E|-------------------------------------------------------------------------|

E|--------------------------------------------------------------------------|
B|-----3--1-1-0-3-1-1-0-0-4-5---5-5-4--3--7--5--1--0--0--3--0--1------------|
G|---0-----------------------------------------------------------2--5--2--4-|
D|--------------------------------------------------------------------------|
A|--------------------------------------------------------------------------|
E|--------------------------------------------------------------------------|

The play it again


There you go
Comments