Misc Soundtrack - Godfather Theme Chords & Tabs

 

Godfather Theme Chords & Tabs

Misc Soundtrack Chords & Tabs

Version: 5 Type: Tab 0 ratings
1 star 2 stars 3 stars 4 stars 5 stars
comments

Godfather Theme Tab

E: ----12-15-14-12-15-12-14-12---------  ----12-15-14-12-15-12-14-12--------|
B: ---12-----------------------13-15-12  ---12---------------------12-11-10-|
G: ------------------------------------  -----------------------------------|
D: ------------------------------------  -----------------------------------|
A: ------------------------------------  -----------------------------------|
E: ------------------------------------  -----------------------------------|

E: -------12-14-------11-12--------------------------------------|
B: -10-14-------10-14--------------15-13-12-15-12-13-12----------|
G: -------------------------9-12-------------------------11-12-9-|
D: --------------------------------------------------------------|
A: --------------------------------------------------------------|
E: --------------------------------------------------------------|
[ Tab from: http://www.guitartabs.cc/tabs/m/misc_soundtrack/godfather_theme_tab_ver_5.html ]
Comments