Misc Soundtrack - Ghostbusters Ii Chords & Tabs

 

Ghostbusters Ii Chords & Tabs

Misc Soundtrack Chords & Tabs

Version: 1 Type: Tab 0 ratings
1 star 2 stars 3 stars 4 stars 5 stars
comments

Ghostbusters Ii Tab

e----------------------------------------------------------|
b-(bu)-------(bu)------(bu)------(bu)----------------------|
g---9--(9)----9---(9)----9--(9)----9--(9)---9-----h--h-----|repeat
d---------11---------11--------11--------11---11-9-10-11---|  X4
a----------------------------------------------------------| 
E----------------------------------------------------------|

e------------------------------|-----------------------------|
b------------------------------|-----------------------------|
g------------------------------|-----------------------------|
d--0-0-4-0-2----0--0-0-0-0-----|--0-0-4-0-2---0--0-0-0-0-----|
a------------3-------------3-5-|------------3------------3-5-|
E------------------------------|-----------------------------|
[ Tab from: http://www.guitartabs.cc/tabs/m/misc_soundtrack/ghostbusters_ii_tab.html ]
Comments