Misc Soundtrack - From Dusk Till Dawn Chords & Tabs

 

From Dusk Till Dawn Chords & Tabs

Misc Soundtrack Chords & Tabs

Version: 2 Type: Tab 0 ratings
1 star 2 stars 3 stars 4 stars 5 stars
comments

From Dusk Till Dawn Tab

Tito and Tarantula

Dark Night
from Soundtrack: "From Dusk Till Dawn"

Clean with tremolo

E----0---------------------0---------------------
B------0-----8---------------0-------------------
G--------7-9---9--7-9----------7-9-9--/7--4p2-0--
D------------------------------------------------
A-7---------------------7------------------------
E------------------------------------------------

When he sings ...dark night..
[ Tab from: http://www.guitartabs.cc/tabs/m/misc_soundtrack/from_dusk_till_dawn_tab_ver_2.html ]
E-------0-----------------------0---------------------
B---------0-----8-----------------0--------------------
G-----------7-9---9--7-9------------7-9-9-------------------
D-5---2------------------5---2--------------------------
A-5---2------------------5---2--------------------------
E-3---0------------------3---0--------------------------

Bridge overdrive

E------------------------------------------------
B---8-8------------------------------------------ G---9-9-7/9-7-------------7---7------------------
D-------------9-----7-7/9---9---9-7-5------------
A-7-----------------------------------7----------
E------------------------------------------------

This is not the complete song but it´s a beginning...
If u know how this great song continues please write to
fabianott17x@gmx.at
Comments