Misc Soundtrack - Friends Theme Chords & Tabs

 

Friends Theme Chords & Tabs

Misc Soundtrack Chords & Tabs

Version: 1 Type: Tab 0 ratings
1 star 2 stars 3 stars 4 stars 5 stars
comments

Friends Theme Tab

   
Theme tune for 'friends'.
Calum Jones (betteroff@yahoo.com)

I think i have finally worked out the theme tune for 'Friends'.
This interpitation is in standered tuning, and is only the chords
for it , though I think it sounds quite good. Anyway, here it is!
Enjoy!!!!!!!! . [Once you've found the chords, try and work out your
own rythm.]


    A            D            A           E           D           A
-----------------2------------------------------------2-------------
----2------------3------------2-----------------------3-----------2-
----2------------2------------2-----------1-----------2-----------2-
----2-------------------------2-----------2-----------------------2-
------------------------------------------2-------------------------
--------------------------------------------------------------------

[ Tab from: http://www.guitartabs.cc/tabs/m/misc_soundtrack/friends_theme_tab.html ]
    D            E            A           E           A           E
----2---------------------------------------------------------------
----3-------------------------2-----------------------2-------------
----2------------1------------2-----------1-----------2-----------1-
-----------------2------------2-----------2-----------2-----------2-
-----------------2------------------------2-----------------------2-
--------------------------------------------------------------------    A           E            [? ]        A
------------------------------3--------------------------------------
----2-------------------------3-----------2--------------------------
----2-----------1-------------------------2-------------------------
----2-----------2-------------------------2--------------------------
----------------2-------------2--------------------------------------
------------------------------3--------------------------------------
Comments