Misc Soundtrack - Frere Jacques Theme Chords & Tabs

 

Frere Jacques Theme Chords & Tabs

Misc Soundtrack Chords & Tabs

Version: 1 Type: Bass Tab 0 ratings
1 star 2 stars 3 stars 4 stars 5 stars
comments

Frere Jacques Theme Bass Tab

           "Frere Jacques" Theme song
           Arranged for Bass Guitar
           Tabbed by: Damian
           E-Mail: damian.pamminger@thedoghousemail.com
           Tuning: Standard
[ Tab from: http://www.guitartabs.cc/tabs/m/misc_soundtrack/frere_jacques_theme_btab.html ]
           G-|------------|------------|-----------|-----------|
           D-|------------|------------|-----------|-----------|
           A-|----3--5----|----3--5----|-5--6--8---|-5--6--8---|
           E-|-6--------6-|-6--------6-|-----------|-----------|

           G-|-------------------|-------------------|---------|
           D-|-------------------|-------------------|---------|
           A-|-8--10--8--6--5----|-8--10--8--6--5----|----8----|
           E-|-----------------6-|-----------------6-|-6-----6-|

           G-|---------|
           D-|---------|
           A-|----8----|
           E-|-6-----6-|

           That's it!
Comments