Misc Soundtrack - Forrest Gump Feather Theme Chords & Tabs

 

Forrest Gump Feather Theme Chords & Tabs

Misc Soundtrack Chords & Tabs

Version: 1 Type: Tab 2 ratings
1 star 2 stars 3 stars 4 stars 5 stars
comments

Forrest Gump Feather Theme Tab

This is a beautiful song by John williams

1st part
e--------------5-----------------------------------------
b------5-5---5---5--------5-7-7---7------------------------------
g--6-7-----6-------6----7-------7-----------------------------
d-------------------------------------------------------
a-------------------------------------------------------
E-------------------------------------------------------

e--------------7-4--------------5-------------------------
b----5-7-7---7-----5--------5-5---5---------------------------
g--7-------7------------6-7--------------------------------
d------------------------------------------------------
a------------------------------------------------------
E------------------------------------------------------

[ Tab from: http://www.guitartabs.cc/tabs/m/misc_soundtrack/forrest_gump_feather_theme_tab.html ]
e---4-5-5---5---5-------------------------------------------
b-7-------7---7---7--------5-7-7---7---------------------------
g------------------------7-------7-----------------------------
d------------------------------------------------------
a------------------------------------------------------
E------------------------------------------------------

			1st ending
e------------------I------------------------------------
b---5-7-7----------I---------------------------------------
g-7-------7-4-6-7-4I-2-----------------------2-4--------------  repeat from top
d------------------I-----------------------pickups---------
a------------------I------------------------------------
E------------------I------------------------------------

2nd ending

e---------5--------------------------------5-----------
b-----5-5---5--------------------------5-5---5------------
g-6-7------------------------------6-7--------------2-4-6-7-
d---------------------------------------------------
a-----------------------------------------------------
E----------------------------------------------------

Then there is a key change and things get messy. i haven't figured it out yet


Any questions, comments, criticism, or 
corrections please send to big_dr_b_dad@hotmail.com
Comments