Misc Soundtrack - Father Ted Theme Chords & Tabs

 

Father Ted Theme Chords & Tabs

Misc Soundtrack Chords & Tabs

Version: 2 Type: Tab 0 ratings
1 star 2 stars 3 stars 4 stars 5 stars
comments

Father Ted Theme Tab

----------------------------------------------------------------------------
			     FATHER TED-COMEDY
----------------------------------------------------------------------------
Tabbed by: RACH THACKRAY
Email:ELECTRIC_ROCK@HOTMAIL.CO.UK

HEY PEOPLE!
I LOVE THE ACTOR ARDAL O'HANLON, ESPECIALLY IN FATHER TED. SO I THOUGHT, WHY NOT WORK
OUT THE TABS? SO I DID. AND HERE IT IS, JUST FOR YOU LOL. IT'S EASY TO REMEMBER BECAUSE
ITS MAINLY FRETS 5 AND 7 EXCEPT FOR THE MIDDLE PART. ENJOY!

Tuning:eBGDAE

e|---------------------------------------------------------------------------|
B|---------------------------------------------------------------------------|
G|--5-----------------------------------------------5--7--5-----5------------|
D|------7--5--7----5------5----------------------7-----------7-----7--5--7---|
A|--------------------7--------7--5--7-------7-------------------------------|
E|---------------------------------------------------------------------------|
[ Tab from: http://www.guitartabs.cc/tabs/m/misc_soundtrack/father_ted_theme_tab_ver_2.html ]
e|---------------------------------------------------------------------------|
B|---------------------------------------------------------------------------|
G|-------------------------5-------------------------------------------------|
D|--5-----5------6----9--------7--5--7----5------5-----------------7---------|
A|-----6-----8--------------------------------7-----7--5--7----7-------------|
E|---------------------------------------------------------------------------|

(PLANE NOISE)

e|---------------------------------------------------------------------------|
B|---------------------------------------------------------------------------|
G|--5--7--5-----5-----------------5------------------------------------------|
D|-----------7----------7--7--7----------------------------------------------|
A|---------------------------------------------------------------------------|
E|---------------------------------------------------------------------------|


P.S THE LAST BIT MIGHT NOT SOUNG GOOD YOU NEED THE PLANE SOUND IN THE BACKGROUND.
ANY PROBLEMS FEEL FREE TO EMAIL ME, RACH XXX.
Comments