Misc Soundtrack - Deliverance Theme Chords & Tabs

 

Deliverance Theme Chords & Tabs

Misc Soundtrack Chords & Tabs

Version: 1 Type: Bass Tab 0 ratings
1 star 2 stars 3 stars 4 stars 5 stars
comments

Deliverance Theme Bass Tab

   
Song: Deuling Banjos (For Bass!!!)
Artist: miscellaneous
From the movie "Deliverance"

First part:
Play 2x
a--2h3h5--2-3-0-2---0-
e-----------------3---

Then play 2x:
a-----0-2---2-0-----0-2----
e-3-3-----3-----3-3-----3-2
[ Tab from: http://www.guitartabs.cc/tabs/m/misc_soundtrack/deliverance_theme_btab.html ]
Then you play these chords 2x:
   G G G C G
g--0-0-0-0-0
d--0-0-0-2-0
a--2-2-2-3-2
e--3-3-3-x-3

Then play Yankee Doodle 2x:
a-----0-2---2-0-----0-2---------0-2-3-2-0--------------
e-3-3-----3-----3-3-----3-2-3-3-----------3-0-3-2-0-2-3

This isn't the whole song, this is only part of it.
If you know the rest, please email me or post it.

Tabbed by Travis Thompson
kowboyjak@itookmyprozac.com
Comments