Misc Soundtrack - Cowboy Bebop - Rain Chords & Tabs

 

Cowboy Bebop - Rain Chords & Tabs

Misc Soundtrack Chords & Tabs

Version: 1 Type: Tab 0 ratings
1 star 2 stars 3 stars 4 stars 5 stars
comments

Cowboy Bebop - Rain Tab

Rain
	Cowboy Bebop
		TAbbed by SJ (kirei_008@hotmail.com)
This is just the solo. Thats pretty much the only guitar part 
in the whole song, most of it is played by an organ piano thing.

There are two versions of the song, one sung by a girl and the other
sung by some guy. The one that was played in the TV episode "Ballad of 
Fallen Angels" was the one with the woman, where the solo is cut off 
by Spike and Viscous talking (which is indicated in the tab by \)
Anyways the rest of the tab is for the 'full version' which is with
the guy.
[ Tab from: http://www.guitartabs.cc/tabs/m/misc_soundtrack/cowboy_bebop_rain_tab.html ]
--------------15b-15--15------------
---------8s13------------11---------
--8s14-----------------------15-----
--------------------------------15--
------------------------------------
------------------------------------

----------------------------------	/
-----15h16-15h16--------------18--	/
-----------------17--15-14--------	/
--15------------------------------	/
----------------------------------	/
----------------------------------	/


                              		*Bend this one even more then the one before
                              *
-----------s16-15-13-15--23b-23b-23--
----18-18----------------------------
-------------------------------------
-------------------------------------
-------------------------------------
-------------------------------------
Comments