Misc Soundtrack - Cool Hand Luke Theme Chords & Tabs

 

Cool Hand Luke Theme Chords & Tabs

Misc Soundtrack Chords & Tabs

Version: 1 Type: Tab

Cool Hand Luke Theme Tab

   
The main theme from the Paul Newman movie 'Cool Hand Luke'

Got mad cuz i couldn't find it anywhere so i figured id just tab it out myself.

rythm guitar, a bit slow but steady:
( ) - kind of subtle, but it rings

e-----------------------------------------------------|
b-----------------------------------------------------|
g------7-------7-----7---(7)-----7-----7---------7----|
d---7-----7-9-----7----------------7-9---9-7----------|
a----------------------10---7-8-9-------------10---7--|
e-----------------------------------------------------|
the rest i dont know but its not so hard if you listen to the song

lead guitar(nylon), also slowly, after the intro by the rythm guitar.
[ Tab from: http://www.guitartabs.cc/tabs/m/misc_soundtrack/cool_hand_luke_theme_tab.html ]
                            slide out
e---------------------------------------5---------------------------------|
b---7-8--7p5-7---------8-7p5-7-------7----------7-8--7p5-7---8p7--5---5---|
g---------------------------------7----------------------------------7----|
d-------------------------------------------------------------------------|
a-------------------------------------------------------------------------|
e-------------------------------------------------------------------------|

you can replace the hammers or pulloffs with single strokes, whatever sounds better for 
but it is a single stroke in the real song. the A chord rings over the notes that 
use ur pinky to slide but hold the chord untill the slide.
                                                                    A
e---------------10--9p7-9---------------5h7------7----------------------------|
b-------12--14------------10/7-7-----7-8---8------8-7---8/3-3h5-------2-3/5-7-|
g---11--------------------------------------------------------------2---------|
d-------------------------------------------------------------------2---------|
a-------------------------------------------------------------------0---------|
e-----------------------------------------------------------------------------|

enter violins and repeat the riff, some small changes. sounds nice on nylon, enjoy.
-nds