Misc Soundtrack - Chariots Of Fire Chords & Tabs

 

Chariots Of Fire Chords & Tabs

Misc Soundtrack Chords & Tabs

Version: 1 Type: Tab 2 ratings
1 star 2 stars 3 stars 4 stars 5 stars
comments

Chariots Of Fire Tab

   
Chariots of Fire, theme from the movie soundtrack. 
Figured out and tabbed by William Betts.
This is only the melody, which is supposed to be played by piano 
and horns. There are quite a few countermelodies i dont have, 
but this is the main tune. This is also an octave or two lower 
than it is actually played in the movie, but better suited to guitar.

Riff 1 (Horns)
E|-----------------------------------------------------------------|
B|-----------------------------------------------------------------|
G|-----0-2-0-------------0-2-0__------0-2-0------------------------|
D|---3-------2___------3------------3-------2__--2-3-2-------------|
A|-3-----------------3------------3--------------------3-3__-------|
E|-----------------------------------------------------------------|

Riff 2 (Piano. Theres a cool bass line with this, but thats not my area)
E|------------------------------------/
B|------------------------------------/
G|------------------------------------/
D|-3-2-0-----2----0--------3-2-0---2--/
A|---------3----3----0-2---------3----/
E|
[ Tab from: http://www.guitartabs.cc/tabs/m/misc_soundtrack/chariots_of_fire_tab.html ]
Riff 2 continued.
E/------------------------------------|
B/------------------------------------|
G/------------------------------------|
D/-3-2-0---2----0-----2-3-2-----------|
A/-------3----3---0-2-------3-3-------|
E/------------------------------------|

Ending part. (I dont know what istrument this is, some kind of bells or chimes i guess.)
E|-----------------------------------------------------------------/
B|-----------------------------------------------------------------/
G|-----0-2-0-------------0-2-0__------0-2-0------------------------/
D|---3-------2___------3------------3------------2-3-2-------------/
A|-3-----------------3------------3--------------------3-3__-------/
E|-----------------------------------------------------------------/

Ending part continued
E/-------------------------------|
B/-------------------------------|
G/-------------------------------|
D/--2-3-2-----------2-3-2--------|
A/---------3-3__----------3-3__--|
E/--------------------------3__--|

Playing order:
Riff 1
Riff 2
Riff 1  x2
Riff 2  x2
Riff 1
Ending part.
Comments