Misc Soundtrack - Braveheart Chords & Tabs

 

Braveheart Chords & Tabs

Misc Soundtrack Chords & Tabs

Version: 1 Type: Tab 0 ratings
1 star 2 stars 3 stars 4 stars 5 stars
comments

Braveheart Tab

Braveheart - Soundtrack
-----------------------

---------------------------------------------------
---------------------------------------------------
-------2~~--5--4~---5-4-2---------2----------------
-2--5----------------------5---5----2--------------
---------------------------------------------------
---------------------------------------------------
[ Tab from: http://www.guitartabs.cc/tabs/m/misc_soundtrack/braveheart_tab.html ]
---------------------------------------------------
---------------------------------------------------
-------2~~--5--4~---5-4-2---------2----------------
-2--5----------------------5---5-------------------
---------------------------------------------------
---------------------------------------------------

---------------------------------------------------
---------------------------------------------------
---------14~~--17--16~---17-16-14-----------14-----
-14--17----------------------------17---17-----14--
---------------------------------------------------
---------------------------------------------------

---------------------------------------------------
---------------------------------------------------
---------14~~--17--16~---17-16-14-----------14-----
-14--17----------------------------17---17---------
---------------------------------------------------
---------------------------------------------------


by Bud-hill
Comments