Misc Soundtrack - Barney Miller Theme Chords & Tabs

 

Barney Miller Theme Chords & Tabs

Misc Soundtrack Chords & Tabs

Version: 2 Type: Bass Tab

Barney Miller Theme Bass Tab

Tabbed by Ren D.
Posted by Rich K.

G  :-------------------|-------------------------|-------------------|
D  :-------------------|--------0-1-0-------3-0--|-------------------|
A  :----------0-----1-2|3-----3-------3-1-0-----3|----------0-----1-2|
E  :1-----3-4----------|-------------------------|1-----3-4----------|

                                                                           
G  :-------------------------|-------------------|-------------------------|
D  :--------0-1-0-------3-0--|-------------------|--------0-1-0-------3-0--|
A  :3-----3-------3-1-0-----3|----------0-----1-2|3-----3-------3-1-0-----3|
E  :-------------------------|1-----3-4----------|-------------------------|
[ Tab from: http://www.guitartabs.cc/tabs/m/misc_soundtrack/barney_miller_theme_btab_ver_2.html ]
                                                                      
G  :---------------------|-------------------------|----------3-------|
D  :---------------------|--------0-1-0-------3-0--|---1-3------0-1-2-|
A  :----------0---0---1-2|3-----3-------3-1-0-----3|--------1---------|
E  :1-----3-4---4--------|-------------------------|1-----------------|

                                                              
G  :-------------------|------------3-------|-----------------|
D  :3-2-3----3----0-1-2|3-2-3---3-----0-1-2-|3-3----3---------|
A  :------------1------|----------1---------|-----------------|
E  :------1------------|------1-------------|----1----1-2--3--|

                                                                         
G  :---------------------|--5-5-6-6-7-7-8-8--------|---------------------|
D  :6-------4-6-4-6-----4|6-------------------4-6-4|6-------4-6-4-6-----4|
A  :------6-----------6--|------------------6------|------6-----------6--|
E  :---------------------|-------------------------|---------------------|

                                           
G  :--5-5-6-6-7-7-8-------|----------------|
D  :6------------------1-2|3*--------------|
A  :-----------------3----|----------------|
E  :----------------------|----------------|