Misc Soundtrack - 2001 A Space Odyssey Thus Spake Zarathustra Chords & Tabs

 

2001 A Space Odyssey Thus Spake Zarathustra Chords & Tabs

Misc Soundtrack Chords & Tabs

Version: 1 Type: Tab 2 ratings
1 star 2 stars 3 stars 4 stars 5 stars
comments

2001 A Space Odyssey Thus Spake Zarathustra Tab



E --------------8---8-8----------------------------------------8---8-8---------------------------
B ---------8--------8-8-----------------------------------8--------8-8---------------------------
G ------------------9-8--------------------------------------------8-9---------------------------
D ---10---------------------------------------------10-------------------------------------------
A ------------------------3---3---3---3---3---3--------------------------3---3---3---3---3---3---
E --------------------------3---3---3---3---3---3--------------------------3---3---3---3---3---3-
[ Tab from: http://www.guitartabs.cc/tabs/m/misc_soundtrack/2001_a_space_odyssey_thus_spake_zarathustra_tab.html ]


E --------------8---8--------------8---10---12-13-15---12------------12---13---15---17-----------
B ---------8--------8-10----10-12-10----9---13----13------13---------13---13---13---17---12---5--
G ------------------9-10----10----10---10---12----12---------12------12---12---12---17---12---5--
D ---10---------------10----10----------------------------------14------------------14---12---5--
A -----------------------------------------------------------------------------------0---10---3--
E --------------------------------------------------------------------------------------------3--


Comments