Misc Scales - Movable Minor And Major Chords & Tabs

 

Movable Minor And Major Chords & Tabs

Misc Scales Chords & Tabs

Version: 1 Type: Tab 0 ratings
1 star 2 stars 3 stars 4 stars 5 stars
comments

Movable Minor And Major Tab

Every major scale and every minor scale.

Major Scale (Moveable)
[ Tab from: http://www.guitartabs.cc/tabs/m/misc_scales/movable_minor_and_major_tab.html ]
E -------------------------------------------
B ------------------------------3-5-6--------
G -----------------------2-3-5---------------
D ----------------2-3-5----------------------
A ---------1-3-5-----------------------------
E -1-3-5-------------------------------------


Minor Scal (Moveable)

E --------------------------------4-5--------
B ---------------------------5-6-------------
G ----------------------5-7------------------
D ---------------6-7-9-----------------------
A --------5-7-8------------------------------
E -5-7-8-------------------------------------
Comments