Misc Scales - Exercise Chords & Tabs

 

Exercise Chords & Tabs

Misc Scales Chords & Tabs

Version: 1 Type: Tab 0 ratings
1 star 2 stars 3 stars 4 stars 5 stars
comments

Exercise Tab

   
This is just an exercise. Cool to wram up on! Just have fun with it.

Exercise # Fucking 1!!!!!

||----------------------------------------------------------
||----------------------------------------------------------
||----------------------------------------------------------
||------------------------------------2--4--5--4--2--0------
||---------2--4--5--4--2--0-----0--4------------------------
||---0--4---------------------------------------------------

||----------------------------------------------------------
||----------------------------------------------------------
||----------------------------------------------------------
||----------------------------------------------------------
||--0--1--2--0-----------0--2--4--0--4--2--0----------------
||--------------4--2--0-----------------------0-------------
[ Tab from: http://www.guitartabs.cc/tabs/m/misc_scales/exercise_tab.html ]
Exercise # Fucking 2!!!!!
This one i found in a Guitar player Mag.
This is from Memory!!!  Its a cool lick
||-------------------------------------------------3p0------
||--------------------------------------------3p0-------3p0-
||----------------------------4p0--2p0----------------------
||------------4p0--2p0-----5------------4--5----------------
||-2p0-----5------------3-----------------------------------
||------3---------------------------------------------------

||----5--3p0--2----3----(3)---------------------------------
||--5------------3------------------------------------------
||----------------------------------------------------------
||----------------------------------------------------------
||----------------------------------------------------------
||----------------------------------------------------------

E-mail

ihatesissys@yahoo.com
Comments