Misc Scales - E Minor Pentatonic Scale Chords & Tabs

 

E Minor Pentatonic Scale Chords & Tabs

Misc Scales Chords & Tabs

Version: 1 Type: Tab 0 ratings
1 star 2 stars 3 stars 4 stars 5 stars
comments

E Minor Pentatonic Scale Tab

E MINOR PENTATONIC SCALE

Okay here is the pattern of the E minor Pentatonic Scale:
These are all the notes included in E minor Pentatonic Scale
throughout the fretboard

|-0-------3-----5-----7--------10----12-------15----17----19-------22----24-|
|-0-------3-----5--------8-----10----12-------15----17-------20----22----24-|
|-0----2-----4--------7-----9--------12----14----16-------19----21-------24-|
|-0----2--------5-----7-----9--------12----14-------17----19----21-------24-|
|-0----2--------5-----7--------10----12----14-------17----19-------22----24-|
|-0-------3-----5-----7--------10----12-------15----17----19-------22----24-|


The following is a up down scale pattern I created to become more
familiar with the positioning of the notes, they are to be played
as tripilets in 4/4 (common) time.
Although this scale is seldom used for an entire song, it is almost
always used in e minor solos.
[ Tab from: http://www.guitartabs.cc/tabs/m/misc_scales/e_minor_pentatonic_scale_tab.html ]
|----------------------3|5----------------------|-----------------------7|
|------------------3-5--|--8-5------------------|------------------8-10--|
|--------------2-4------|------7-4--------------|--------------7-9-------|
|--------0-2-5----------|----------7-5----------|--------5-7-9-----------|
|----0-2----------------|--------------7-5------|----5-7-----------------|
|0-3--------------------|------------------7-5-3|5-7---------------------|

|10------------------------------|---------------------------------12|
|---12-10------------------------|---------------------------12-15---|
|---------12-9-------------------|---------------------12-14---------|
|--------------12-9--------------|---------------12-14---------------|
|-------------------12-10--------|------10-12-14---------------------|
|-------------------------12-10-7|10-12------------------------------|

|15---------------------------------|---------------------------------17|
|---17-15---------------------------|---------------------------17-20---|
|---------16-14---------------------|---------------------16-19---------|
|---------------17-14---------------|---------------17-19---------------|
|---------------------17-14---------|---------17-19---------------------|
|---------------------------17-15-12|15-17-19---------------------------|

|19---------------------------------|---------------------------------22|24||
|---22-20---------------------------|---------------------------22-24---|--||
|---------21-19---------------------|---------------------21-24---------|--||
|---------------21-19---------------|------------19-21-24---------------|--||
|---------------------22-19---------|------19-22------------------------|--||
|---------------------------22-19-17|19-22------------------------------|--||
Comments