Misc Scales - Blues Scales Chords & Tabs

 

Blues Scales Chords & Tabs

Misc Scales Chords & Tabs

Version: 1 Type: Tab 3 ratings
1 star 2 stars 3 stars 4 stars 5 stars
comments

Blues Scales Tab

*Some Blues Scales*
By: Daniel Alloway

some people have been looking for some blues scales and stuff,
so heres something that might help.

[C Major Blues Scale]
-|--------------------------------8-11--------------------------------|-
-|---------------------------8-11------11-8---------------------------|-
-|-------------------8-10-11----------------11-10-8-------------------|-
-|--------------8-10--------------------------------10-8--------------|-
-|-------8-9-10------------------------------------------10-9-8-------|-
-|--8-11--------------------------------------------------------11-8--|-

[ Tab from: http://www.guitartabs.cc/tabs/m/misc_scales/blues_scales_tab.html ]
[G Major Blues Scale]
-|--------------------------3-6--6-3--------------------------|-
-|----------------------3-6----------6-3----------------------|-
-|----------------3-5-6------------------6-5-3----------------|-
-|------------3-5------------------------------5-3------------|-
-|------3-4-5--------------------------------------5-4-3------|-
-|--3-6--------------------------------------------------6-3--|-


[F Major Blues Scale]
-|--------------------------1-4--4-1--------------------------|-
-|----------------------1-4----------4-1----------------------|-
-|----------------1-3-4------------------4-3-1----------------|-
-|------------1-3------------------------------3-1------------|-
-|------1-2-3--------------------------------------3-2-1------|-
-|--1-4--------------------------------------------------4-1--|-


*NOTE*
You can do this on any fret, just as long as the intervals are the same.
Rock on!
Comments