Misc Scales - A Blues Improvisation Chords & Tabs

 

A Blues Improvisation Chords & Tabs

Misc Scales Chords & Tabs

Version: 1 Type: Tab 0 ratings
1 star 2 stars 3 stars 4 stars 5 stars
comments

A Blues Improvisation Tab

Tabbed/Composed by Jacques van der Merwe                  27 Feb 2004
A Blues Improvisation

 h = hammer on
 / = slide up
 \ = slide down
[ Tab from: http://www.guitartabs.cc/tabs/m/misc_scales/a_blues_improvisation_tab.html ]
E||------------------------------------------------------------------------------5-
B||----------------------------------------------------------------8-8-5-5h8-5-8---
G||--------------------------------------7-7-5-5h7-5-7-8-8-7-7h8-7-----------------
D||------------------------7-7-5-5h7-5-7-------------------------------------------
A||--------5-5h6-5h6-6h7-5---------------------------------------------------------
E||--5-5h8-------------------------------------------------------------------------

E|-5--------------------------------------------------||
B|---8-5----------------------------------------------||
G|-------8-7-5----------------------------------------||
D|-------------7-5------------------------------------||
A|-----------------7-6-5h6-5h6-5h6-5h6-5--------------||
E|---------------------------------------8-5---5/8\5--||

Comments